Any “Deathraycat” fans here?

Merc

Friend of Fred
May 6, 2017
5,660
Florida
I check out his channel every once and a while and like what he’s doing. Slightly different but I’d list his channel on par with ones of Adrian Whyte and Damian Bacci for players looking to get into this stuff.
 

Danno

Gretschie
Jan 2, 2023
159
South Portland, Maine
Yes indeed, I've been following Nico the whole pandemic and hope he comes to the USA to play some gigs. My favorite song by his band X Ray Cat Trio is Morticia. It has a simple Power Chord progression which I think is this, at least this is what I've been playing to cover it at home.

Its either:

e |----------------|--------------|
B |----------------|--------------|
G |----------------|--------------|
D |-11-11-11-11-|-9--9- -------|
A |---9--9--9--9-|-7--7--9--9--|
E |----------------|--------7--7-|

or

e |----------------|--------------|
B |----------------|--------------|
G |----------------|--------------|
D |-11-11-11-11-|-9--9-9------|
A |---9--9--9--9-|-7--7--7---9-|
E |----------------|------------7-|
 

Outlaw

Country Gent
Jul 13, 2011
1,364
UK
Xray cat trio are pretty cool with some good lessons on YouTube.
They are from Leeds UK.
 


Top