Join Gretsch-TalkToday

Brian setzer mystery train tab?(one part not whole song)?

Discussion in 'Songs in the key of Gretsch' started by collared_dove4, Jul 5, 2010.

  1. collared_dove4

    collared_dove4 Gretschie

    Messages:
    148
    Joined:
    Apr 13, 2010
    Location:
    florida
    I've tryed and tryed to figure this out...but i can't D: ...so I've sunk to this level of begging for a tab! ((who hasn't? atleast once in their life))
    I don't want the whole song..I pretty much know all of it..

    YouTube- stray cats-mystery train

    ^ this version i like alot.

    Could anyone help me with the main lick? from the start of the video to 0:17 is the lick. I can't seem to figure it out ;c;

    Thanks if someone can help!
     
  2. TennisNick

    TennisNick Gretschie

    Messages:
    243
    Joined:
    May 3, 2010
    Location:
    Moncton, NB
    Sounds like (and I could be quite wrong) he's just playing the root and the 5th in the following pattern.

    one of these


    ---------------
    ---------------
    ----2-2----2-2----
    ----2-2----2-2-----
    --0-------------
    ---------0------
     
  3. StrayCatStrut

    StrayCatStrut Electromatic

    Age:
    24
    Messages:
    47
    Joined:
    Apr 26, 2010
    Location:
    Sweden
    ------------------------------/4--2-------------------
    --0------2--0----------------/5--3--0-----------------
    --0h1----2--1----------------/4--2--0h1---------------
    --2------2--2-----0-0-1-1-2---------2-------0-0-1-1-2
    --------------4-4------------------------4-4----------
    0------0----------------------------------------------

    I think it's something like that :)
     
  4. Forum Sponsor Sponsored posting

  5. collared_dove4

    collared_dove4 Gretschie

    Messages:
    148
    Joined:
    Apr 13, 2010
    Location:
    florida
    aah. Thank you. C:
     
  6. bozman007

    bozman007 Electromatic

    Age:
    37
    Messages:
    86
    Joined:
    Apr 14, 2009
    Location:
    Sacramento
  7. collared_dove4

    collared_dove4 Gretschie

    Messages:
    148
    Joined:
    Apr 13, 2010
    Location:
    florida

Share This Page